Gitar-tr.com Reklam Vermek için Tıklayınız...

  Aktif KonularAktif Konular  Forum Üyelerini GösterÜye Listesi  Forumu AraArama  YardımYardım
  Kayıt OlKayıt Ol  GirişGiriş
Yerli Akorlar
 Gitar-tr.com FORUM : Yerli Akorlar
Konu Konu: tab arşivi alın Yanıt YazYeni Konu Gönder
Yazanlarda
Mesaj << Önceki Konu | Sonraki Konu >>
pardus
Moderatör Grubu
Moderatör Grubu
Simge

Kayıt Tarihi: 2007-19-Nisan
Ülke: Türkiye
Aktif Durum: Pasif
Gönderilenler: 309
Gönderen: 2007-22-Nisan Saat 02:10 | Kayıtlı IP Alıntı pardus

  kırac oysa bir umuttu hep

e---------5------------------------------------------------- --------

b--5-7-8----8--7--5----7--8--7--5------5--7--5-------------- --

g----------------------------------------7----------------7- -5--7--9

e----------------------------------------------------------- -----------

b-------5--7--8--7--5--------5--7--5-------------5

g--7---------------------7----------------7--5--7------7--5- -7--4

 

 

kıraç olurya

e--7--8--7--10--8--7--7-----------------

b------------------------------10-----------

            

e-------7-------8--7-----------------------

b--10------10--------10--10--8----------

 

e---------------7----------------------------

b--8--10--8-----10--8--8--7-------------

 

e---------------------------------

b7--8--7--10--7--8-------------

g--------------------------9--------------

 

murat göğebak ay yüzlüm

e 1     1    0    1  0

b                                   2  3  2  0  2

 

e                            0  1  0

b 1  1    1     3                   3   3  1  0

 

b 0    0     0   1   3    1   3   1   3

 

e                0   1   3   1   0   0

b3   3   3                                      3   1

 

e  0   0    0              0        0        0

b                            3       3         3

 

erkin koray çöpçüler

 

e   5----7---5----8---7---5---3   -----3---5----3----5----

 

e 3-----5----3---7----5----3----1-----1---3---1----3--5

 

e--0--1---3---5----3---1---0---1---3----0----1---3---5---3-- -1--0

 

e-12--10---12---10--12--10--8---7--10--8---10---8--12--10--8 --7(aşktan yana)

 

e--8--7--8--7--8--7---5---3--0--1--3--5--3--5---1----0

 

 

Mor ve Ötesi - Cambaz (gitar solo)


e-------2-0-0-----------3-2-2-0-0-------2-0-0-------------
b-0-1-0-------3-3-1-1-0-----------3-1-0-------4-4-1-1-0-0-
g---------------------------------------------------------
d---------------------------------------------------------
a---------------------------------------------------------
e---------------------------------------------------------

 

e-------2-0-0-----------3-2-2-0-0-------2-0-0-----------0-
b-0-1-0-------3-3-1-1-0-----------3-1-0-------4-4-1-1-4---
g---------------------------------------------------------
d---------------------------------------------------------
a---------------------------------------------------------
e---------------------------------------------------------

 

.......................................

 

>>>mor ve ötesi
>>>yaz yaz yaz


intro :

 E ------------------------------------------------------------ -----
 B ---------------------------------5-5------------------------ -----
 G -5-5-4-4-5-5-------------------------4-4-5-5---------------- -----
 D -------------7---x-7-x-x-7-7-7----------------7---x-7-x-x-7- 7-7--
 A -------------7---x-7-x-x-7-7-7----------------5---x-5-x-x-5- 5-5--
 E ------------------------------------------------------------ -----


 E -----------------------------------------------------7------ 12---
 B ------------------------------------------9------------9---- -----
 G -7-7-5-5-7-7---------------------------------9-----------9-- -----
 D -------------5---x-5-x-x-5-5-5--------9---------9----------- -----
 A -------------5---x-5-x-x-5-5-5------7----------------------- -----
 E ------------------------------------------------------------ -----


 Am                                 Dsus2
 Neden senle hiç durmadan tartışıp duruyoruz ki biz
 Am                             Dsus2
 Bile bile üstüme gelmene ne gerek var

 

 E --------1--------------------------0---------------
 B ------3----------------------1-0-1-----------------
 G ----2----------------------------------------------
 D --0------------------------2-----------------------
 A -------------------------0-------------------------
 E ---------------------------------------------------
   Neden dostça ve insanca ayrılamıyoruz ki biz


 E ------2------2----------------------0--------------
 B --------0---(0)------------------------------------
 G ----------2-----------------------1---1------------
 D --------------------------------2------------------
 A ----2-------------------------2--------------------
 E ---------------------------------------------------
   Ve bunca yaşanmış yılların da hatırı var

 

 E -----------------------------------------------------
 B -----------------------------------------------------
 G --7-5---7-7-7--5h7-5h7-------------------------------
 D --7-7---7-7-7--7-7-7-7--------7-5---7-7-7--5h7-5h7---
 A ------------------------------7-7---7-7-7--7-7-7-7---
 E -----------------------------------------------------                     
    Eğer hergün bu işkence      eğer her gün bu karmaşa

                                
 E -------------------------------------------0-----------
 B ------------------------------------0------------------
 G --------------------------------------1----------------
 D ---5-3---5-5-5--3h5-3h5-----------2-----2--------------
 A ---5-5---5-5-5--5-5-5-5--------------------------------
 E -----------------------------0-0-------------0-0-0-0---
   Eğer her gün bu kavgaya katlanırım sanıyorsan

 

 nakarat:

 E ------------------------------------------------------------ --
 B ------------------------------------------------------------ --
 G ---2---4---5--5-5-5-5-5-5-5-5-5-5-5-5-4-4-4-4-4-4-4-4-4-4-4- 4-
 D ---2---2---2--2-2-2-2-2-2-2-2-2-2-2-2-5-5-5-5-5-5-5-5-5-5-5- 5-
 A ---0---0---0--0-0-0-0-0-0-0-0-0-0-0-0-5-5-5-5-5-5-5-5-5-5-5- 5-
 E ------------------------------------------------------------ --
     Sen de yaz  yaz yaz bir kenara yaz    bütün sözlerimi


 E ------------------------------------------------------------ --
 B ------------------------------------------------------------ --
 G ---1-1-1-1-1-1-1-1-1-1-1-1-1-------2-2-2-2--4-2-2-5--------- --
 D ---2-2-2-2-2-2-2-2-2-2-2-2-2-------2-2-2-2--2-2-2-2--------- --
 A ---2-2-2-2-2-2-2-2-2-2-2-2-2-------0-0-0-0--0-0-0-0--------- --
 E ---0-0-0-0-0-0-0-0-0-0-0-0-0-------------------------------- --
        Yanılırsam çık karşıma       göster kendini

 

 Belki zamanla teker teker silinirler aklından
 Anlarsın ki boşuna geçmiş bunca zaman

 


 interlude & outro :

 E --------------------------------------------------------
 B --------13------------12-----------10---------9---------
 G -----------12------------12----------10---------7-------
 D -----14------------12-----------10----------9-----------
 A --12------------10------------8-----------7-------------
 E --------------------------------------------------------


 E -----------7--------------------------------------------
 B -------7-------10------9---7---9---10-------------------
 G -----8---8---8----8------8---8---8----------------------
 D ---9----------------------------------------------------
 A --------------------------------------------------------
 E --------------------------------------------------------


 E --------------------------------------------------------
 B --------13------------12-----------10---------9---------
 G -----------12------------12----------10---------7-------
 D -----14------------12-----------10----------9-----------
 A --12------------10------------8-----------7-------------
 E --------------------------------------------------------
 

 E -----------------------------7--------------------------
 B -------7---9---10---9---10------------------------------
 G -----8---8---8----8---8----8----------------------------
 D ---9----------------------------------------------------
 A --------------------------------------------------------
 E --------------------------------------------------------

 


 solo :

 E ------------------------------------------------------------ -
 B ----------------------13-12--------------------------------- -
 G ---------------14-----------14-14--------------------------- -
 D ------------14--------------------15-----14-15-14-12-------- -
 A ---12-12-15------------------------------------------15----- -
 E ------------------------------------------------------------ -


 E ------------------------------------------------------------ -
 B ------------------------------------------------------------ -
 G --12--12---------------------------------------------------- -
 D ---------15-14h15-14-12-14----12---------------------------- -
 A ---------------------------------15-14-12-11-12---11-------- -
 E ------------------------------------------------------13--12 -


 E -------12----12----12--------------------------------------- -
 B ----13----12----13----12-13-15-15b17r15-13-12--------------- -
 G ------------------------------------------------------------ -
 D ------------------------------------------------------------ -
 A ------------------------------------------------------------ -
 E ------------------------------------------------------------ -


 E -----13----13----13-----------15b17r15-13-12---------------- -
 B --13----12----13-----12-13-15------------------------------- -
 G ------------------------------------------------------------ -
 D ------------------------------------------------------------ -
 A ------------------------------------------------------------ -
 E ------------------------------------------------------------ -


 E ------13----13----13-12-13-15-17b19r17-16-13---------------- -
 B ---15----13----15------------------------------------------- -
 G ------------------------------------------------------------ -
 D ------------------------------------------------------------ -
 A ------------------------------------------------------------ -
 E ------------------------------------------------------------ -


 E -----13---13----13----13---12---12---12----12----12--------- -
 B --17---15----13----12----12---10----9----10---12------------ -
 G ---------------------------------------------------2--------
 D ------------------------------------------------------------ -
 A ------------------------------------------------------------ -
 E ------------------------------------------------------------ -


 Am                                 Dsus2
 Neden senle hiç durmadan tartışıp duruyoruz ki biz
 Am                             Dsus2
 Bile bile üstüme gelmene ne gerek var
 Dm                           Am
 Neden dostça ve insanca ayrılamıyoruz ki biz
 B7                              E
 Ve bunca yaşanmış yılların da hatırı var

 Am                            G
 Eğer hergün bu işkence, eğer her gün bu karmaşa
 F                               E 
 Eğer her gün bu kavgaya katlanırım sanıyorsan

        Am                                G
 Sen de yaz yaz yaz bir kenara yaz bütün sözlerimi
 E                         Am
 Yanılırsam çık karşıma göster kendini
     Am                           G
 Belki zamanla teker teker silinirler aklından
 E                         Am
 Anlarsın ki boşuna geçmiş bunca zaman
interlude & outro >>>
Am G F E
|--------------------------|---------------------|
|-------13----------12----|------10--------9---|
|----------14----------12-|---------10-------7-|
|----14----------12-------|---10---------9-----|
|-12----------10----------|-8----------7-------|
|--------------------------|----------------------|


B7 E
|-----------7-------- |---------------7-----|
|-------7-------10---|-10---9---10--------|
|-----8---8---8----8-|----8---8----8------|
|--9------------------|----------------------|
|----------------------|---------------------|
|----------------------|---------------------|


Am G F E
|---------------------------|---------------------|
|-------13----------12----|------10--------9---|
|----------14----------12-|---------10-------7-|
|----14----------12-------|---10---------9-----|
|-12----------10----------|-8----------7-------|
|---------------------------|---------------------|


B7 E
|----------------------|-------------7----|
|-------7---9---10----|-9----10---------|
|-----8---8---8----8--|----8----8-------|
|--9-------------------|------------------|
|----------------------|------------------|
|----------------------|------------------|

 

 Am    : x02210
 Dsus2 : xx023x
 Dm    : xx0231
 B7    : x21202
 G     : 320003
 F     : 133211
 E     : 022100

 /     : slide
 b     : bend 
 r     : release
 p     : hammer-on
 h     : pull-off 
 x     : dead note

 

................................................

 

ask icinde - mor ve otesi

giris:(kerem)

-------------------------------------------------------
--------3--------------2--------------3----------------
------0---0---0------0---0---0------0---0---0----------
----4-------4------4-------4------4-------4------------
--------------------------------2----------------------
-3---------------2-------------------------------------


--------0----------------------------------------------
----------2-------------3-------------2----------------
-----0------0---------0---0---0-----0---0---0----------
---4----------4-----4-------4-----4-------4------------
-0-----------------------------------------------------
-----------------3--------------2----------------------


----------------------2---2-0-0-0------
--------3-------------3---3-2-0-2------
------0--0---0--------4---4-4-4-4------
----4------4----------4---4-4-4-4------
--2---------------0--------------------
---------------------------------------

ritm:(kerem)
-7--7------5-5----3-3-----2-2--------
-7--7------5-5----3-3-----2-2--------
-9--7------6-6----4-4-----3-3--------
-9--9------7-7----5-5-----4-4--------
-7--9------7-7----5-5-----4-4--------
-7--7------5-5----3-3-----2-2--------
Em Bm       A      G       F#


solo:(Harun)
-----------------------------------------------------|
-----------------------------------------------------|
-----------------------------------------------------|
------------------------------------------4-2--------|
--4h5p4-2-4-5---4h5p4-2-4--2--4h5p4-2-4-5-----5-4-2--|
-----------------------------------------------------|

<<<<<<<<<<<<<<< <<<<<<<<<<<<<<< <<<<<<<<<<<<<<< <<
ritm:(kerem)
-7--7------5-5----3-3-----2-2--------
-7--7------5-5----3-3-----2-2--------
-9--7------6-6----4-4-----3-3--------
-9--9------7-7----5-5-----4-4--------
-7--9------7-7----5-5-----4-4--------
-7--7------5-5----3-3-----2-2--------
Em Bm       A      G       F#

  BUGUN     VARSIN  YARIN     YOKSUN
  KOCAMAN BIR      ÇIGLIK   OLSUN
  BENIM  DERDIM    SENIN   OLSUN
  BILEN BILSIN    DUYAN   DUYSUN

NAK:
-------------------------------------------------------
--------3--------------2--------------3----------------
------0---0---0------0---0---0------0---0---0----------
----4-------4------4-------4------4-------4------------
--------------------------------2----------------------
-3---------------2-------------------------------------
ASK          IÇINDE          YALAN

--------0----------------------------------------------
----------2-------------3-------------2----------------
-----0------0---------0---0---0-----0---0---0----------
---4----------4-----4-------4-----4-------4------------
-0-----------------------------------------------------
-----------------3--------------2----------------------
IÇINDE               TEK   BIR    AYNA

------------------------0-----------
--------3-----------------2---------
------0--0---0-------0------0-------
----4------4-------4----------4-----
--2--------------0------------------
------------------------------------

  BINBIR    BIÇIMDE    (TEKRAR)

nakratta akor baSilmiyoR
ama yok ille de akor bascam diyosaniz
sunlarla idare edin.

D-F#-Bm-A-G-F#-Bm-A

D    F#    Bm      A
ASK ICINDE YALAN ICINDE
G       F#      Bm     A
TEK BIR AYNA BINBIR BIÇIMDE

........................................................

duman - koprualtı

Not: "16 Defa" lar ritim oluyor. Üşendiğim için 16 tane
yan yana yazmadım.

Bölüm A
############################################################ #
e|-------------------------------------------------------
B|-------------------------------------------------------
G|-------------------------------------------------------
D|---7-)-16 Defa :)------------9-)--16 Defa--------------
A|---5-)-----------------------7-)-----------------------
E|-------------------------------------------------------
     Denizler aştım geliyorum   bilirsin derdim seninle
     intro...

     Yolumdan döndüm kopuyorum  bilirsin derdim seninle
     intro...
############################################################ #

Bölüm B

-|-----Akorlara 8'er kez aşağı vurun------------------------------
e|-------------------------------------------------------
B|-------------------------------------------------------
G|-------------------------------------------------------
D|------7--------6----------------------4----------------
A|------5--------4-----------4----------2----------------
E|---------------------------2---------------------------
 D5       C#5         F#5        B5        
 Denizler aştım geliyorum ister eylen benimle

-|-----Akorlara 8'er kez aşağı vurun--
e|-------------------------------------------------------
B|-------------------------------------------------------
G|----------------------------|Akorlara burda 4'er kez vurun
D|------7--------6----------------------4----------------
A|------5--------4------------4----------2----------------
E|----------------------------2---------------------------
 D5       C#5          F#5 G#5 A5 B5        
 Yüzünü bir görsem yeter

       D5       C#5         F#5         B5          D5         
 Yolumuz ayrı biliyorum   ölmeden sonbir defa belini
 C#5        &nb sp; F#5 G#5 A5 B5 
 Kavrasam yeter 

       D5     C#5      F#5       B5         &nbs p; D5
 Hadi gel buluşalım eski köprünün altında
               C#5       F#5 G#5 A5 B5
 Kimseler görmesin

 D5       C#5        F#5       B5         &nbs p; D5
 Mehtaba  karşı uzanalım eski köprünün altında
       C#5       F#5 G#5 A5 B5
 Kimseler bilmesin...
       D5     C#5  
 Kimseler duymasın...

 İntro
 

 Offfffff Offfffffff Offfffffff
 Aaaaahhhhhh Ahhhhhh Ahhhhhh

        Sabah akşam çaldım çaldım çaldım
        Ellerim parçalandı. Beni anlatıyor bu beni!
        Bana yazmış...
 

..............................................

 

 Bebek Tab

Seslendiren: Duman


D I------------------------------------------
A I---0-0-0---------0-0-0--------------------
E I--------4-2-2-2-4-----4-2-2-2-------------

   Geri gel beri gel geri bebek                                

D I-------------------------------------------
A I---0-0-0-----------------------------------
E I--4-----4-2-2-2-4-1-1-1-3-0-0-0------------
 
   Gözleri sürmeli bebek/Saçları altın bebek

D I-------------------------------------------
A I---0-0-0---------0-0-0---------------------
E I--------4-2-2-2-4-----4-2-2-2--------------
         
   Isıtır ısıtır dudakları/bakışları

D I-------------------------------------------
A I---0-0-0-----------------------------------
E I--4-----4-2-2-2-4-1-1-1-3-0-0-0------------

   Islak ıslak öpmek gerek/Dönüp dönüp bakmak gerek

D I-------------------------------------------
A I----0-0-0-0-0-0-0-0-0-0-0-0-0-0-0-0--------
E I-------------------------------------------
   
   Gel...

    Fm#      Em        Dm         A  
   Gitme yalvarırırm yalnız koma beni bebek
    Fm#      E      Dm      A
   Dünyalar güzeli biricik bebek
    Fm#      Em        Dm         &nbs p; A
   Hasret ateşiyle kül olmuşum ben bebek
    Fm#    E      Dm
   Alem yıkılsa ararım...

    A     FM#   A     FM#   A     Fm#    F    E
   Bebek güzel,bebek tatlı,bebek nazik,bebek narin
    A
   Bebek...


 ..............................................

Devlerin Aşkı  Cahit Berkay

-|-----------------|------------------|--------------------- ------------------
-|-----------------|------------------|--------7rb---------- ------------------
-|-----------------|------------------|-7/9---------9--6rb-- 4-----------------
-|-9--7------------|-9-7-9-7-9-7-5----|--------------------- ---5/7--5--4h5p4--
-|-7--5------------|-7-5-7-5-7-5-3----|--------------------- ------------------
-|-----------------|------------------|--------------------- ------------------
 |12 kere tekrar   |                    |                               2 tek-   

----------| ------------------------------------------------------------ -------
----------|--------------------------------5--3-3--7--5h7--5 --8--7-7-7/10-----
----------|-------------5--4h5p4-----5--4------------------- ------------------
-2-0-2----|----4--5--7------------7------------------------- ------------------
----------|-7 ------------------------------------------------------------ -----
----------| ------------------------------------------------------------ -------
 rar- |                                                                                  

------------------------------------------------------------ ------------------
-10--8h10--8--10h12--10--10--12h13--12--12--15--13h15-13-17- 15h17-15--19------
------------------------------------------------------------ ------------------
------------------------------------------------------------ ------------------
------------------------------------------------------------ ------------------
------------------------------------------------------------ ------------------
                                                                                          

-----------| ------------------------------------------------------------ ----|-
-17h19--17-| ------------------------------------------------------------ ----|-
-----------|11h12--11------11h12--11--11-------------------- ----------------|-
-----------|-----------14-------------------14/16--14--12--1 4/16--14----14--|-
-----------| ------------------------------------------------------------ ----|-
-----------| ------------------------------------------------------------ ----|-
           |                         2  tekrar                                      |

------------------------------------------------------------ ------------------
------------------------------------------------------------ ------------------
------------------------------------------------------------ ------------------
-9-7-9-7-9-7-5 ------------------------------------------------------------ ----
-7-5-7-5-7-5-3 ------------------------------------------------------------ ----
------------------------------------------------------------ ------------------

............................................................ ........

Veremem Sana Acımı  Düş Sokağı Sakinleri

3-0-----0-----0----0-----0-----0--------
4---4-----4-----4----4-----4-----4------
5-----5-----5----------5-----5----------
    Sözcüklerim                   bulur

3---4-----4----------4-----4------------
4-----5-----5---5------5-----5---5------
5-7-----7-----7----7-----7-----7--------
     aşığın          ateşini

3-----0-----0----------0-----0----------
4---4-----4-----4----4-----4-----4------
5-5-----5-----5----5-----5-----5--------
     Yıkar              gider      beni

3-----0-----0-----
4---4-----4-----4-
5-3-----3-----3---
             ölüm    

3-----0-----0----------0-----0---------
4---4-----4-----4----4-----4-----4-----
5-2-----2-----2----2-----2-----2-------
gibi
           ********   

  Bakışların deler içimdekileri

  Kaldırıp atar beni ceset gibi

           ********


3-----0-----0----------0-----0---------
4---7-----7-----7----5-----5-----5-----
5-5-----5-----5----3-----3-----3-------
        Arayıp bulmak neyi

3-----0-----0----------0-----0---------
4---4-----4-----4----4-----4-----4-----
5-2-----2-----2----2-----2-----2-------
değiştirir     

3-----0-----0----------0-----0---------
4---7-----7-----7----5-----5-----5-----
5-5-----5-----5----3-----3-----3-------
 Karşımda duruyor suretim

3-----0-----0----------0-----0---------
4---4-----4-----4----4-----4-----4-----
5-2-----2-----2----2-----2-----2-------
gülü         bitirir

         C           ; Bm
         Veremem sana acımı
         G           ; Bm 
         Kirlenir dünya
         G              Em
         Şehrin boş sokakları
         C                  G
         Islanır göz yaşıyla
         C               Bm
         Kovalar arabalar
         G               Bm
         Arkamdaki aynayı
         G                 Em
         Kırılınca biter anlarım
         C           ; G
         Düşümdeki rüya


Yollarım yorar yarin günahını
Döver olur beni boş kitap gibi
Hüzün aşkınadır aşık uykularım
Sever olur beni hançer gibi

................................................

Ölümler  Düş Sokağı Sakinleri

GİRİŞ
G------------------0-I----------------------
D-----2-------2------I-----2-------2-----0--  x 4
A---2---2---2---2----I---2---2---2---2------
E-0-------0------0---I-0-------0------0-----

solo
B-------------------I--------------------I------------------
G-------------------I--------------------I----------0h2-2s4~
D-0-0h2~~-5p3-2h3-2~I-0-0h2~~-5p3-2h3-2~-I-0-0h2~5p3--------
A-------------------I--------------------I------------------

 


 * Ölümler      çıplak       gelir         * Geceyi indirir
 * Yayılır     nefesin       çiçeklere     * Ay  ışılldar
G------------------0---------------------------------------0
D-----2-------2-----------2-------2-----0-----2--------2----
A---2---2---2---2-------2---2---2---2-------2---2---2----2--
E-0-------0------0----0-------0------0-----0------0-------0-

 yavaşça   gözlerine * Benden geçmek kolay    değil..
  soğuk    bedeninde * Günah bana hiç el      değil..
B------------------1-I-------------------I------------------
G-----2-------2------I-----2-------2----0I-----------------0
D---2---2---2---2----I---2---2---2---2---I----2--------2----
A-0-------0------0---I-0-------0------0--I--2---2---2----2--
E--------------------I-------------------I0-------0-------0-

  * Feryat   eder                ateş     sözleri-
  * Feryat   eder                dilim     hüzünle-
G---------------------0---------------------------------
D-----3------------------0---0------------3----------3--
A---3---3---3-------2------2------------3---3---3------3
E-1-------1-------3-----------------1---------1---------

 me..
 re..
G-------------------0---
D-----2--------2--------
A---2---2---2----2------
E-0-------0-------0-----


C                Em
Vedalar doğru değil
Am
Sevgiler yalan değil
Am                   Em
Koşarım ben sensizliğe
C                G
Bu son bakışta gitmek...
                          Em
             Hiç mümkün değil.

Em
*Görünür bana senden kalan
Em                    Am
*Bilirim ki vardır şarkımı duyan
Am                      Em
*Boşunadır yakarış çizilene
F      Dm    G   F    Em
*Geçer zaman aşk sevince

Em
*Ölümler çıplak gelir
Em                    Am
*Geceyi indirir yavaşça gözlerine
Am                    Em
*Senden çıkmak  kolay değil
F         Dm    G       F    Em
*Beterdir hayat acılar çekenlere


C                Em
Vedalar doğru değil
Am
Sevgiler yalan değil
Am                 Em
Koşarım ben sensizliğe
C                 G
Ağlarım yağmur düşürür seni...
              Am                 Em
              Kapı açık... gir içeri

 

 

e---------------0--------I-------------------0---------
B-0-0-1-3-0-1-3---1------I-0-0-1-3-0-0-1-3-3---3-1-3-5-
G------------------------I-----------------------------
 Alev alev yandigim dogru  Küllerimden dogarmiyim ...
 
e--------------------------------------I--------------I
B-5-5-7-8-7-5-7-8--5-7-8-7-5-7-3-5-3---I--1-3-1-------I
G--------------------------------------I--------------I
    Kendimi ariyorken olmaktan ...       SENDEYIM
 
e--------------------I--------------------------------I
B-1-0-1-0-1-3-1-0-5--I-1-0-1-3-3-5-7-7-5--------------I
G--------------------I--------------------------------I
 Al beni neyaparsan     al beni ne yaparsan yaaap!..
 
e--------------------I--------------------------------I
B-1-0-1-0-1-3-1-0-5--I-1-0-1-0-1-3-1-0----------------I
G--------------------I--------------------------------I
 Al beni ne yaparsan    al beni ne yaparsan yap!...
 
 
MuRaT KeKiLLi BeŞiNCi MeVSiM
 e-------------------------9---7----------7--------7--------- -------------------------
 B---7----9---10----9--------------9---10----9-----------10-- -9--7--9--10---9------7--
 G---------------------7------------------------7------------ -------------------9-----
D ------------------------------------------------------------ ------------------------
 
HaLuK LEvent eLa GöZLüM 
e--------------------------------------------
B--------------------------------------------
G---9-7--9----7---9-7-----7-9-5-7-0--2-------
D--------------------------------------------
A--------------------------------------------
E--------------------------------------------
 
 
e---------------------------------------------------------
B------------12-------------------------------------------
G---9-7-9----9----7-7-9~---7-9-5-7-0-2~----3--2--0--2-----
D----------------------------------------------------2----
A---------------------------------------------------------
E---------------------------------------------------------
 

 

DüŞ SoKaĞı SaKiNLeRi SeVDaN BiR aTeŞ      
Em                             
                 
e|----------0--------3--------2-------|
B|-------0-----0--------0-------------|       
G|----0-----------0--------0----------|        
D|------------------------------------|       
A|-------------------------------0--2-|       
E|-0----------------------------------|
 
   C
e|------------------------------------|
B|----------1--------3--------1-------|
G|-------0-----0--------0--------0----|
D|----2-----------2--------2--------2-|
A|-3----------------------------------|
E|------------------------------------| 
                                                                      
   
                 -Tekrar-
      Am                            
                                 
e|------------------------------------|
B|----------1--------3--------1-------|       
G|-------2-----2--------2--------2----|      
D|----2-----------2--------2--------2-|      
A|-0----------------------------------|       
E|------------------------------------|
 
   Em
e|------------------------------------|
B|----------0--------1--------0-------| 
G|-------0-----0--------0--------0----| 
D|----2-----------2--------2--------2-|
A|------------------------------------|
E|-0----------------------------------|
 
                 -Tekrar-
 
e|------------------------------------|
B|-----------------------S------------|  
G|------------------------------------|   
D|-----------------------O------------|       
A|------------------------------------| 
E|-3--2--0---------------N------------| 
 
                 -Giris...-
 
Em         D        C         Em
Senin alev gözlerin eritse su ruhumu
 
Em         D       C         Em    )       
Buz olur kesilirim yanarken içim   ) 2
 
Em          D    C         Em         
Sesin bir uçurum çagirirsa beni       
 
Em        D     C         Em   )
Kus olur uçarim yanarken içim  )2
 
Em         Am   D    Em     )
Sevdan bir ates oldu bende  )      
Em         Am   D     Em    ) 2 
Gönlüm bir deli costu sende )
                
Em          D        C          Em 
Saçlarin rüzgarindan savururken gönlümü
 
Em          D       C          Em    )
Sürgün olur göçerim bu diyarlardan   )2
 
Em           D       C          Em
Kime dokunur ellerim kimi görür gözlerim
 
Em         D       C        Em     )
Ölüm çikar karsima yine sen derim  )2
 
NAKARAT -2 Kez-
     
               -Arpej-
 
   p   i   m   i   a   i   m   i
e|-----------------0----------------|
B|---------0---------------0--------|  
G|-----0-------0-------0-------0----|   
D|----------------------------------|       
A|----------------------------------| 
E|-0--------------------------------| 

   |-----------|   |-----------|

 

Bas gitar

Bir ben miyim peri$an...
G|-----------------1------------------||----------4-4-6-4-|- 2---------------|
D|-----------2-2-4------------2-2-4-2-||------5-6---------|- --5-4-2-4-------|
A|---0-0-3-4----------0-0-3-4---------||--7-7-------------|- ----------4 3-0-|
E|------------------------------------||------------------|- ----------------|
  \______4 defa tekrarlanacak_________/ \_____2 defa_____/ \____1 defa_____/


Butun gece agladim...
G|-------4-6-4-|---------2---4-2------|------4-6-4-|-2------ --------|
D|---5-6-------|----3-4---------4-2-1-|--5-6-------|---5-4-2 -4------|
A|-7-----------|-5--------------------|7-----------|-------- ---4-3-0|
E|-------------|----------------------|------------|-------- --------|
  \__2 defa___/                            \__2 defa__/


G|---------4-9-7-6------------2--4-2------|------4-6-4-|-2-- -------------|
D|-----5-6---------9-6---3-4---------4-2-1|--5-6-------|---5 -4-2-4-------|
A|---7-----------------5------------------|7-----------|---- -------4-3-0-|
E|----------------------------------------|------------|---- -------------|

aaaaAAAAAAaa......
G|-----------------1------------------||----------4-4-6-4-|- 2---------------|
D|-----------2-2-4------------2-2-4-2-||------5-6---------|- --5-4-2-4-------|
A|---0-0-3-4----------0-0-3-4---------||--7-7-------------|- ----------4 3-0-|
E|------------------------------------||------------------|- ----------------|
  \______4 defa tekrarlanacak_________/ \_____2 defa_____/ \____1 defa_____/

Yanlizlar Rihtimiiindaaa.....
G|---------------1--1---------------|
D|---------2-2-4------5-4-2-4-------|
A|-0-0-3-4--------------------4-3-0-|
E|----------------------------------|
 \___$arki bitene kadar calinacak__/

gidiyorum  kıraç
e|-(PARTİ1)------------------------------------------------|
B|-3-6-4-3-4-3--3-6-4-3-4-3---3------4-3---4----------4-3--|
G|--------------------------5---5--5-----5---5-3-5--5-----5|
D|---------------------------------------------------------|
A|---------------------------------------------------------|
E|---------------------------------------------------------|


e|---------------------------------------------------------|
B|-3-------------3-----------------3-----------------------|
G|---5-3-5-3---3---5-3-5-3-2-3---3---5-3-5-3-2-3-2---2-5-3-|
D|---------------------------------------------------------|
A|---------------------------------------------------------|
E|---------------------------------------------------------|


e|-------I-(PARTİ2)------------------I-(PARTİ3)------------|
B|-------I---------------------------I---------------------|
G|-2-3-2-I-3-5-3-5-7-5--7-8-7-8-10-8-I-3-5-3-2-3-2-3-2-=0=-|
D|-------I---------------------------I---------------------|
A|-------I---------------------------I---------------------|
E|-------I---------------------------I---------------------|

herkezin tek bir şanslık hakkı vardır



__________________
ekmek şarap sen ve ben
Yukarı Dön Göster pardus's Özellikler Diğer Mesajlarını Ara: pardus
 
pardus
Moderatör Grubu
Moderatör Grubu
Simge

Kayıt Tarihi: 2007-19-Nisan
Ülke: Türkiye
Aktif Durum: Pasif
Gönderilenler: 309
Gönderen: 2007-22-Nisan Saat 02:17 | Kayıtlı IP Alıntı pardus

Bari manco unutamadım

)------------------------------------------------|
B|--------0-------1-1-1-0-----0---------------0------------|
G|----2-0---0-------------2-0----0--------2-0---0----------|
D|--2---------3-2-----------------3-2---2---------3-2------|
A|---------------------------------------------------------|
E|---------------------------------------------------------|

e|------------------------I--------------------------------|
B|-1-1-0-----0-------0-1--I1-0-3-1-0--0-0-0---1-0----------|
G|-------2-0-----0-2------I-----------------2-----2-2-2-2-0|
D|------------------------I--------------------------------|
A|------------------------I(PARTİ 2)------------------- ----|
E|------------------------I--------------------------------|


e|---------------------------------------------------------|
B|-0---------0-3-1--1-0-3-1-0--0---1-0---------0-----------|
G|--0-----0-2--------------------2-----2-2-2-0--0----------|
D|---3-2-3----------------------------------------3-2------|
A|---------------------------------------------------------|
E|---------------------------------------------------------|


e|-0-0-0-1-0-1-0------0-0-0-1-0---0--------0-0-1-0-----0-0-|
B|---------------3-0------------3----0-1-3---------3-0-----|
G|----------------------------------2----------------------|
D|---------------------------------------------------------|
A|---------------------------------------------------------|
E|---------------------------------------------------------|
                 

e|-1-0---0---3-1-0-1-0---0-------------0-------------------|
B|-----3---------------3---1-0-0-3-1-0---3-1---1---3-3-1-0-|
G|-------------------------------------------4-------------|
D|---------------------------------------------------------|
A|---------------------------------------------------------|
E|---------------------------------------------------------|

 

 

 

  e|0-0-5-3-1-0-1----3-3-1-0-----------1-0-------------------- 0--------|
B|--------------3----------3-3-5-1-------3-1-3-0-1-3--0-1-3- --1-0----|
G|---------------------------------------------------------- ------2--|
D|---------------------------------------------------------- ---------|

 

 

haluk levent anlasana

                     Am       G
|---------------------------8-7~--8-----------------------
|----------8---8-7-------------------8-8~-----------------
|------------9-----9~~-------------------------------------
|--7-9-10-------------------------------------------------
|---------------------------------------------------------
|---------------------------------------------------------

 Dm                                           Am
|----13----12---------------------------------------------
|-10----10----10~-----13----12---------------------------
|------------------10----10----10~--9--7—9s10--9-7-7s9---
|--------------------------------------------------------
|--------------------------------------------------------
|---------------------------------------------------------

  Am                              G
|-15-15~-------------------------------------------------
|--------15s17-15---13s15-13---12s13-12------------------
|---------------------------------------12--14-12----12~-
|-------------------------------------------------12-----
|--------------------------------------------------------
|--------------------------------------------------------

  Dm
|---------------13-17-13-------------15------------------
|---------15-17----------15------------------------------
|------14-------------------14----14----14---------------
|-14-15------------------------15----------15------------
|--------------------------------------------------------
|--------------------------------------------------------

  Am
|--------------------------------------------------------
|----------------------15--------------------------------
|-------------14-16-17----17-----------------------------
|-s/14--15-17----------------17-17~----------------------
|--------------------------------------------------------
|--------------------------------------------------------

BU SABAH YAĞMUR VAR İSTANBULDA
 e---10--10-------10--10-------10--10------5--5----|
B-10--1 0--10----9---9---9----8---8---8---7--7--7--|
G------------- ------------------------------------|
D-------------------- -----------------------------|
A--------------------------- ----------------------|
E---------------------------------- ---------------|

e---5--5------5--5-------------|
B--6-- 6--6---6--6--6-----------|
G------------------------------| 
D------------------------------|
A----------------------- -------|
E------------------------------|
 
GÜLLERİN İÇİNDEN
e[----------------------------------------   
B[---------------------6^8-6-9-7-9-7------
G[---5-7-7^9-7 -7--------------------------
D[-7-------------------------- ------------        
A[----------------------------------------
E[------------ ----------------------------



e[---------------------- ------------------  
B[---6-5-6-6^8----6-8^6----6-5-6-5-6-8-10-
G[-7---------- -----------------------------      
D[----------------------------------------        
A[----------------------------------------
E[------------ ----------------------------



e[---------------------- ------------------
B[---6------------------------------------
G[-7---9-7-7----5-5-7-4-5-----------------      
D[------------------------7-7---7--5------        
A[----------------------------------------
E[------------ ----------------------------



e[---------------------- ------------------
B[----------------------------------------
G[----------------------------------------      
D[----------------------------------------        
A[-12-10^7-7-7-5-------3^5--3--5—5^7------
E[------------ ----------------------------



e[---------------------- ------------------
B[-------------------------------------- --
G[----------------------------------------       
D[-10-9-10-9-7------10-9-10-9-7-----------       
A[----------------------------------------
E[------------ ----------------------------
 
ALDIRMA GÖNÜL
 B----------------------------------------------------------- 
G-7--8--8--7--8--8--7--5--4--------5--7--7--5--7--7--5--4- --
D------------------------------------------------------- ---6
A----------------------------------------------------- ------
E--------------------------------------------------- --------


E--------------------------------------------- ------
B--------------------------------------------------- 
G-4--5--5--4--5--5--4-----------------4--4------4---
D--- -------------------6--5--------6---------6-----6        
A---------------------------------------------------
E--- ------------------------------------------------


E----- ---------------------
B--------------------------
G------- 4-----4--5--4--5--7
D-5--6-----6---------------
A--------- -----------------
E--------------------------


E------- ----------------------------------------------------
B----- ------------------------------------------------------
G-7- -8--8--7--8--8--7--5--4--------5--7--7--5--7--7--5--4---
D- ---------------------------------------------------------6
 A----------------------------------------------------------- 
E--------------------------------------------------------- --


E--------------------------------------------------- 
B---------------------------------------------------
G-4- -5--5--4--5--5--4-----------------4--4----------
D--------- -------------6--5--------6---------6--6--5        
A---------------------------------------------------
E--- ------------------------------------------------

 

 

Duman – Seni Kendime Sakladım

 

e|---------------------------------------------------------- ---

B|-----6-6-6-6-5-5-6-8-9--------5-6-5-------------5-6-5----- ---

G|---6-------------------5-5-6--------6-5---5-5-6-------6-5- ---

D|---------------------------------------------------------- ---

 

 

 

e|---------------------------------------------------------- ---

B|---------------------------------------------------------- ---

G|---1-1-1-3-1-0-1---0-1-1-0-0-3---------------------------- ---

D|-----------------3---------------------------------------- ---

 

 

Düş Sokağı Sakinleri
 

E:-------------------------------------------|
B:-------------------------------------------|
G:-------------------------------------------| 
D:----2--2-----------0--0--------------------| 
A:----------2--2--3--------0--2--------------|
E:-------------------------------------------|


E:-------------------------------------------|
B:-------------------------------------------|
G:-------------------------------------------|
D:-------------------0--0--------------------|
A:----2--2-----0--0--------0--2--------------|
E:----------3--------------------------------|

 

Seni Tanımayan Yok Bu Şehirde  Düş Sokağı Sakinleri

intro:rhythm bölümü 3 kez ,sonra bass giriyor

rhythm
e---------------------------------------------------
b---------------------------------------------------
g-------0-----------2------------0-----------2------
d---4-----4-----3-----3------4-----4-----3-----3----
a-2---2-----2-3---3-----3--2---2-----2-3---3-----3--
E---------------------------------------------------

bass bölümü
g--------------------------------------------------
d-0-4-2--------------------------------------------
a-------2-3-333-2-----2----------------------------
e-----------------3-1------------------------------

g--------------------------------------------------
d-0-4-2-----7\9-7-5-4------------------------------
a-------2-3-----------2----------------------------
e--------------------------------------------------

g--------------------------------------------------
d-0-4-2--------------------------------------------
a-------2-3-------------2--------------------------
e-----------888-7-5-3-1----------------------------

g--------------------------------------------------
d-0-4-2-----5-4-2----------------------------------
a-------2-3-------2--------------------------------
e--------------------------------------------------

e----------------------------------------------------------
b----------------------------------------------------------

g-------0----------------2---------------0-----------2-----
d---4-----4----------3-----3---------4-----4-----3-----3---
a-2---2----------2-3---3-----3-----2---2-----2-3---3-----3-
e----------------------------------------------------------
   seni tanımayan        yokbuşehirde

   salaşmeyha nedeki     yorgo
  
   kır kahvesindeki      süleyman abi
  
   batakhanedeki         ; mine

   son ada vapurunun     demir parmaklıkları

   emirgandaki        & nbsp;  tahta masa

   bakırköydeki           seyyar satıcı

   yeşilköydeki           dondurmacı
 
   seni tanımayan        yokbuşehirde

solo: (yeter.. den başlıyor ..ayrılırken'de bitiyor)

e--------------------------------------------------------
b--------------------------------------------------------
g-4-5-7---5-7---5-7---5-4---4-5-7---5-7---5-7---5-4------
d--------------------------------------------------------
a--------------------------------------------------------
E--------------------------------------------------------

   yeter................................................

  çekgit güneşimden     yada beni bana bırak
 
  neolur                 hiçbirşey beklemem ayrılırken

............................................................ .............................

Düş Sokağı Sakinleri - Sevdan Bir Ateş Solo

 

Sevdan Bir Ateş(Solo)        &n bsp;    Düş S.S

e---------------------------------------------------------
B----------------------------------------------------------
G----------------------------------------------------------
D----7-7--2--2--3--5--5--0--2---2--2----------------------
A------------------------------------2-4--4---5--5--0--2--
E---------------------------------------------------------

 

............................................................ ..............

 

Düş Sokağı Sakinleri - Sevdan Bir Ateş (TAB/AKOR)

 

      Em                           
               
e|----------0--------3--------2-------|
B|-------0-----0--------0-------------|   &nb sp;  
G|----0-----------0--------0----------|   &nb sp;   
D|------------------------------------|   &nb sp;  
A|-------------------------------0--2-|   &nb sp;  
E|-0----------------------------------|

   C
e|------------------------------------|
B|----------1--------3--------1-------|
G|-------0-----0--------0--------0----|
D|----2-----------2--------2--------2-|
A|-3----------------------------------|
E|------------------------------------|
                                                                  
  
                -Tekrar-
      Am                          
                               
e|------------------------------------|
B|----------1--------3--------1-------|   &nb sp;  
G|-------2-----2--------2--------2----|   &nb sp; 
D|----2-----------2--------2--------2-|   &nb sp; 
A|-0----------------------------------|   &nb sp;  
E|------------------------------------|

   Em
e|------------------------------------|
B|----------0--------1--------0-------|
G|-------0-----0--------0--------0----|
D|----2-----------2--------2--------2-|
A|------------------------------------|
E|-0----------------------------------|
 
                -Tekrar-

e|------------------------------------|
B|-----------------------S------------| 
G|------------------------------------|  
D|-----------------------O------------|   &nb sp;  
A|------------------------------------|
E|-3--2--0---------------N------------|

                -Giris...-

Em         D        C         Em
Senin alev gözlerin eritse su ruhumu

Em         D       C         Em    )      
Buz olur kesilirim yanarken içim   ) 2

Em          D    C         Em        
Sesin bir uçurum çagirirsa beni      

Em        D     C         Em   )
Kus olur uçarim yanarken içim  )2

Em         Am   D    Em     )
Sevdan bir ates oldu bende  )     
Em         Am   D     Em    ) 2
Gönlüm bir deli costu sende )
              
Em          D        C          Em
Saçlarin rüzgarindan savururken gönlümü

Em          D       C          Em    )
Sürgün olur göçerim bu diyarlardan   )2

Em         &nbs p; D       C          Em
Kime dokunur ellerim kimi görür gözlerim

Em         D       C        Em     )
Ölüm çikar karsima yine sen derim  )2

NAKARAT -2 Kez-
    
              -Arpej-

   p   i   m   i   a   i   m   i
e|-----------------0----------------|
B|---------0---------------0--------| 
G|-----0-------0-------0-------0----|  
D|----------------------------------|     ;  
A|----------------------------------|
E|-0--------------------------------|
   |-----------|   |-----------|

 

............................................................ ..................

Düş Sokağı Sakinleri - Hüzün Kovan Kuşu

 

   Hüzün kovan kusu gelmis.....
e------------------------------------------4---------------- -------I
B-5---5---4---4---5---5---4---4---5---4h5----4---4---2----2- 0---0--I
G---6-------4-------6-------4------------------4--------2--- --1----I
D----------------------------------------------------------- -------I


e------0------------I      &nb sp; ------0-----I
B--------0---0---0--I      &nb sp; --------0---I
G--1h2-----2---1----I 3 KEZ  --1h2-----2-I
D-------------------I      &nb sp; ------------I

............................................................ .............

 

Veremem Sana Acımı  Düş Sokağı Sakinleri

3-0-----0-----0----0-----0-----0--------
4---4-----4-----4----4-----4-----4------
5-----5-----5----------5-----5----------
    Sözcüklerim                   bulur

3---4-----4----------4-----4------------
4-----5-----5---5------5-----5---5------
5-7-----7-----7----7-----7-----7--------
     aşığın          ateşini

3-----0-----0----------0-----0----------
4---4-----4-----4----4-----4-----4------
5-5-----5-----5----5-----5-----5--------
     Yıkar         & nbsp;  gider      beni

3-----0-----0-----
4---4-----4-----4-
5-3-----3-----3---
             ölüm    

3-----0-----0----------0-----0---------
4---4-----4-----4----4-----4-----4-----
5-2-----2-----2----2-----2-----2-------
gibi
           ********   

  Bakışların deler içimdekileri

  Kaldırıp atar beni ceset gibi

           ********


3-----0-----0----------0-----0---------
4---7-----7-----7----5-----5-----5-----
5-5-----5-----5----3-----3-----3-------
        Arayıp bulmak neyi

3-----0-----0----------0-----0---------
4---4-----4-----4----4-----4-----4-----
5-2-----2-----2----2-----2-----2-------
değiştirir     

3-----0-----0----------0-----0---------
4---7-----7-----7----5-----5-----5-----
5-5-----5-----5----3-----3-----3-------
 Karşımda duruyor suretim

3-----0-----0----------0-----0---------
4---4-----4-----4----4-----4-----4-----
5-2-----2-----2----2-----2-----2-------
gülü         bitirir

         C           ; Bm
         Veremem sana acımı
         G           ; Bm 
         Kirlenir dünya
         G              Em
         Şehrin boş sokakları
         C                  G
         Islanır göz yaşıyla
         C               Bm
         Kovalar arabalar
         G               Bm
         Arkamdaki aynayı
         G                 Em
         Kırılınca biter anlarım
         C           ; G
         Düşümdeki rüya


Yollarım yorar yarin günahını
Döver olur beni boş kitap gibi
Hüzün aşkınadır aşık uykularım
Sever olur beni hançer gibi

erkin koray çöpçüler

 

e   5----7---5----8---7---5---3   -----3---5----3----5----

 

e 3-----5----3---7----5----3----1-----1---3---1----3--5

 

e--0--1---3---5----3---1---0---1---3----0----1---3---5---3-- -1--0

 

e-12--10---12---10--12--10--8---7--10--8---10---8--12--10--8 --7(aşktan yana)

 

e--8--7--8--7--8--7---5---3--0--1--3--5--3--5---1----0

DUYDUMKİ UNUTMUŞSSUN GÖZLERİM RENGİNİ

 

E- -0 - 1- - - - - - - - - - - - - - - - - - - - - -

B- - - - - - -3-1-0- - - 0-1-0- - - - - - - - -

G- - - - - - - - - - - -2- - - - - -2-0- - - - - -

D- - - - - - - - - - - - - - - - - - - - - - -3-  -2

 

E0-1- - -0- -1- -5- -3- -0- -1- -3- -1- -0- -0

B- - - -3- - - - - - - - - - - - - - - - - - -- - -  - 3-

 

E- 0- -1- - - - - - - - - - - - - - - - - - - - - - - -

B- - - - - 3- 1- 0- - - -1 - 0- 1-0 - - - - - - - 

G- - - - - - - - - - - -2 - - - - - - - - -2- 0 -2- 0

 

E

B- - - - - - - - - - - - - - - -1 - 0- - - - -- - - - - - - - - -

G2- -3- -2- -0- - -0- - - - - - - -2- -0- - - - - - - - - -

D- - - - - - - - - -3- - - 2 - - - - - - - - - -3- -2- -3- -2

 

E

B-1- -1- -1- -1- - 0- - 1- - 0- - - - - -0- -1- -0- - - - - - - - -

G - - - - - - - - - - - - - - - - - - -0- - - - - - - - - - -2- - 0- -2- -0

D- - - - - - - - - - - - - - - - - - - - -3- -2- - - - - - - - - - - - - - - -

 

E- - - - - - - - - - - - - - - - -  - - - - - - - - - - - - -

B- - - - - - - - - - - - - - - - 0- - - - - - - - - - - - -

G- - - - - - - - - - - - - - -2 - 2- 0- - - - - - - - - -

D-3 - 3- -3 - 3- -2 - 0- - - - - - 3- -2 - -3 - 2-

 

 

KUM GİBİ

 

E--------------------------------------------------------

B--3--3---3---3---5---6---6---5---6--5--3---2

 

E---------------------------------------------------------

B-5---3---2-------5---3---2--------6---5--3--2--

G-------------------------------------------------------3

 

E

B

G-3--3--3--3------6--7----7--6--7--6-----------3

 

E

B

G--7--6--3----7--6--3---------9--7--6--3--2----

 

Sevenler Ağlarmış Tablari

G-----------------|--------------------------------7-9-
D-9--7------------|-9-7--7-9-7----7------------7-9-----
A------10--10-7-7-|------------10---10-7--7-10---------
E-----------------|------------------------------------
< 4 DEFA

G-----------------|------------------------------------
D-9--7------------|-9-7--7-9-7----7-------7-5----------
A------10--10-7-7-|------------10---10-7------5-7------
E-----------------|------------------------------------
< 4 DEFA >

Bir yarim olsun isterdim ...
G----------------------------------------------------
D---------------7-------------------7-9-7------0-----
A-7-9-10-10--10---10-9--9-9-9-10--7-------10-7---7---
E----------------------------------------------------


/ Ben sevmek sevmek ister....
|G--------------------------------------------------
A |D--------9-9-7----7----9-9-7--------0--------------
|A-7-9-10-------10---10-------10-9-7---9-9-9-9-10-7-
|E--------------------------------------------------

Bir yarim oldu sonunda...
G-----------------------------------------------------
D---------------7-------------------7-9-7------0------
A-7-9-10-10--10---10-9--9-9-9-10--7-------10-7---7----
E-----------------------------------------------------




__________________
ekmek şarap sen ve ben
Yukarı Dön Göster pardus's Özellikler Diğer Mesajlarını Ara: pardus
 
pardus
Moderatör Grubu
Moderatör Grubu
Simge

Kayıt Tarihi: 2007-19-Nisan
Ülke: Türkiye
Aktif Durum: Pasif
Gönderilenler: 309
Gönderen: 2007-22-Nisan Saat 02:19 | Kayıtlı IP Alıntı pardus

HALUK LEVENT

YOLLARDA BULURUM

Dm Am
E:--7-8-7-5-5-5-7-8--5-5-7-5-3-3-3-5-7-
B:--------------------------------------
G:--------------------------------------
D:--------------------------------------
A:--------------------------------------
E:--------------------------------------

E Am
E:--3-3-5-3-2-2-3-5--2-5-3-2-2-2---0----
B:-------------------------------4-5----
G:--------------------------------------
D:--------------------------------------
A:--------------------------------------
E:--------------------------------------

Gülben Ergen

     Yalnızlık alır götürür
E)                                                  
B)                  -6              4          3    
G)  -5  7-8-7-8-7-8    -7    -5  7    5  3  5    3  
D)                                                  
A)                                                  
E)                                                  

    Eller böyledir
E)                                                  
B)                  3        -1                    -
G)  -1  3-5-3-5-3-5  -3  1  3  -1    0  1  3  0    -
D)                                                  
A)                                                  
E)
 

2023

 

e:-------------------------------------------------|
B:-------------------------------------------------|
G:------------------------------------------------|
D:------------------------------------------------|
A:--3-----2----0--------0----2----0----------|
E:--------------------3--------------------3----|

 


e:--------------------------------------------------|
B:-------------------------------------------------|
G:-------------------------------------------------|
D:-------------------------------------------------|
A:------------------------0-----------------------|
E:--1---0---1---3------------3---1---0--------|

 

e:------------------------------------------------|
B:-----------------------------------------------|
G:-----------------------------------------------|
D:-----------------------------------------------|
A:----------------3---2------------------------|
E:--0---1---3---------------------------------|

 


e:-------------------------------------------------|
B:-------------------------------------------------|
G:------------------------------------------------|
D:------------------------------------------------|
A:--3-----2----0--------0----2----0----------|
E:--------------------3--------------------3----|

 


e:--------------------------------------------------|
B:-------------------------------------------------|
G:-------------------------------------------------|
D:-------------------------------------------------|
A:------------------------0-----------------------|
E:--1---0---1---3------------3---1---0--------|

 

Cacık -Sözüm Meclisten  Dışarı

e:------------------------------------------------|
B:-----------------------------------------------|
G:-----------------------------------------------|
D:-----------------------------------------------|
A:---3---2--0----------------2-----------------|
E:----------------3---2---3--------0-----------|


e:-----------------------------------------------|
B:----------------------------------------------|
G:----------------------------------------------|
D:---------------------------------------------|
A:---3---2--0----------------3-----2--------|
E:----------------3---2---3-------------------|

 

e:----------------------------------------------|
B:----------------------------------------------|
G:---------------------------------------------|
D:---------------------------------------------|
A:-------------0---2---0---------------------|
E:--2--2--3-----------------3--2------------|

 

e:----------------------------------------------|
B:---------------------------------------------|
G:---------------------------------------------|
D:---------------------------------------------|
A:-------------0---2---0---------------------|
E:------2--3-----------------3--2------------|

 

 

e:----------------------------------------------|
B:---------------------------------------------|
G:---------------------------------------------|
D:-0------------------------------------------|
A:-----3--2---0------------------------------|
E:-------------------3---2-----3---2---0-----|

 

Rüya

e:---------BU KISIM  İKİ KEZ ÇALINACAK----------------------------------------------|&nbs p;      
B:---------------------------------------------------------- -------------------------|     &nbs p;         &nbs p;
G:---------------------------------------------------------- -------------------------|     &nbs p;         &nbs p;      
D:-------------------------------------2--0----------------- -------------------------|     &nbs p;
A:--2-------------2----------2--2-------------3--2--2----0-0 -----0--2-3-2-2--------|            
E:-----0--2--3-------0--2--3-------------------------------- ------------------------|       ;         

 


e:---------------------------------------------------------- -------------------------|
B:---------------------------------------------------------- -------------------------|
G:---------------------------------------0---------------0-- -------------------------|
D:--2-3-2----0-0----2-3-2----0-0---2--3--------3--2-------3- -2--0--2--0--0--2--3--|
A:---------------------------------------------------------- -------------------------|
E:---------------------------------------------------------- -------------------------|

 

e:---------------------------------------------------------- -------------------------|
B:---------------------------------------------------------- -------------------------|
G:---------------------------------------0---------------0-- -------------------------|
D:--2-3-2----0-0----2-3-2----0-0---2--3--------3--2-------3- -2--0--2*-----0--0----|
A:---------------------------------------------------------- -------------------------|
E:---------------------------------------------------------- -------------------------|
* BİRAZ BEKLENECEK (1-2 SN KADAR)

 

 

 

 

 

e:---------BU KISIM  İKİ KEZ ÇALINACAK---------------------------------------------|  ;    
B:---------------------------------------------------------- ------------------------|
G:-------------------------------------2--0----------------- ------------------------|       ;
D:--2-------------2----------2--2-------------3--2--2----0-0 -----0--2--3--2--2----|      & nbsp;    
A:-----0--2--3-------0--2--3-------------------------------- -----------------------| 
E:---------------------------------------------------------- ------------------------|


e:---------------------------------------------------------- ------------------------|
B:---------------------------------------0---------------0-- ------------------------|
G:--2-3-2----0-0----2-3-2----0-0---2--3--------3--2-------3- -2--0--2--0--0--2--3-|
D:---------------------------------------------------------- ------------------------|
A:---------------------------------------------------------- ------------------------|
E:---------------------------------------------------------- ------------------------|

 

e:---------------------------------------------------------- ------------------------|
B:---------------------------------------0---------------0-- ------------------------|
G:--2-3-2----0-0----2-3-2----0-0---2--3--------3--2-------3- -2--0--2*-------0--0-|
D:---------------------------------------------------------- ------------------------|
A:---------------------------------------------------------- ------------------------|
E:---------------------------------------------------------- ------------------------|

* BİRAZ BEKLENECEK (1-2 SN KADAR)

 

 

 


e:--2---------------2---------------2--2---7--5--3--1----1-- 0-0---0--2--3--2--2---|
B:------0--2--3-------0--2--3------------------------------- -----------------------|
G:---------------------------------------------------------- ------------------------|
D:---------------------------------------------------------- ------------------------|
A:---------------------------------------------------------- ------------------------|
E:--------------BU KISIM İKİ KEZ  ÇALINACAK----------------------------------------|

 

e:--2-3-2--0-0---2--3--2--0--0---2--3--5--3--2--5--3--2---0- --2---0--0---2--3-----|
B:---------------------------------------------------------- -------------------------|
G:---------------------------------------------------------- -------------------------|
D:---------------------------------------------------------- -------------------------|
A:---------------------------------------------------------- -------------------------|
E:---------------------------------------------------------- -------------------------|

 


e:--2-3-2--0-0---2--3--2--0--0---2--3--5--3--2--5--3--2---0- --2*---------0--0----|
B:---------------------------------------------------------- -------------------------|
G:---------------------------------------------------------- -------------------------|
D:---------------------------------------------------------- -------------------------|
A:---------------------------------------------------------- -------------------------|
E:---------------------------------------------------------- -------------------------|



__________________
ekmek şarap sen ve ben
Yukarı Dön Göster pardus's Özellikler Diğer Mesajlarını Ara: pardus
 
pardus
Moderatör Grubu
Moderatör Grubu
Simge

Kayıt Tarihi: 2007-19-Nisan
Ülke: Türkiye
Aktif Durum: Pasif
Gönderilenler: 309
Gönderen: 2007-22-Nisan Saat 02:25 | Kayıtlı IP Alıntı pardus

BEBEK
D I------------------------------------------
A I---0-0-0-------------0-0-0--------------------
E I---------4-2-2-2-4---------4-2-2-2-------------

   Geri gel beri gel geri bebek         & nbsp;         & nbsp;        

D I-------------------------------------------
A I-----0-0-0-----------------------------------
E I--4--------4-2-2-2-4-1-1-1-3-0-0-0------------

   Gözleri sürmeli bebek/Saçları altın bebek

D I-------------------------------------------
A I---0-0-0-------------0-0-0---------------------
E I-----------4-2-2-2-4--------4-2-2-2--------------
          
   Isıtır ısıtır dudakları/bakışları

D I-------------------------------------------
A I----0-0-0-----------------------------------
E I--4-------4-2-2-2-4-1-1-1-3-0-0-0------------

   Islak ıslak öpmek gerek/Dönüp dönüp bakmak gerek

D I-------------------------------------------
A I----0-0-0-0-0-0-0-0-0-0-0-0-0-0-0-0--------
E I-------------------------------------------





Bu akşam
İntro:

e|----2-0---0-----0-----2-0---0-----00-|
B|--0-----3---2-3---2-0-----3---2-3----|

e|----2-0---0-----0--------------------|
B|--0-----3---2-3---2-0---3-2-0-3-2-00-|

Solo:

e|----2-0---0-----0-----2-0---0-----00-|
B|--0-----3---2-3---2-0-----3---2-3----|

e|----2-0---0-----0--------------------|
B|--0-----3---2-3---2-0---3-2-0-3-2-00-|

e|---54545454545h7-5454545--10-9-7-----|
B|-0-----------------------------------|

e|---54545454545p4-2---2-0---0---------|
B|-0-----------------------3---2-0-0---|




Seni Kendime Sakladım



e|---------------------------------------------------------- ---

B|-----6-6-6-6-5-5-6-8-9----------5-6-5-------------5-6-5--- -----

G|---6-----------------------5-5-6--------6-5---5-5-6------- 6-5----

D|---------------------------------------------------------- ---







e|---------------------------------------------------------- ---

B|---------------------------------------------------------- ---

G|---1-1-1-3-1-0-1--------0-1-1-0-0------------------------- -------

D|--------------------3---------------------3--------------- ----------





Aman Aman

intro


B:2-2-2-3-2-0------0-0-0-2-0-------2-2-2-3-2-0-------------- ------|
G:---------------------------------2----------------------1- 1-1-2-1------|
D:---------------------------------------------------------- --------------4----|




B:2-2-2-3-2-0------5-5-5-7-5--------2-2-2-3-2-0------------- --------|
G:----------------------------------6----------------------- 1-1-1-2-1------|
D:---------------------------------------------------------- ----------------4-|

D:4-4-4-4-4-4-4-----2-1-1-1-2-1-----|
A:----------------------------------------4--|


A:4-4-4-4-4-4-4-----2-1-1-1-2-1-----|
E:-------------------------------------4--|

 

teoman dursun dünya
E  - - - - - - - - - - - - - - - - - - - - - - - - - - - - - - - - - - -
B - - 7 - 5 - 3 - 2 - 3 - 2 - 5 - 3 - 2 - - - - 2 - - 3 - - - - - - - -
G - - - - - - - - - - - - - - - - - - - - 4 - - - - - - - - - - - - - -
D - - - - - - - - - - - - - - - - - - - - - - - - - - - - - - - - - - -
A - - - - - - - - - - - - - - - - - - - - - - - - - - - - - - - - - - -
E  - - - - - - - - - - - - - - - - - - - - - - - - - - - - - - - - - - -

 

 


Aşk kırıntısıyla doymaktansa.......
e|-7-5--------------------5--------------------------------|
B|-----8-7-10-8-7-5---8-----8-7-5---5-------8-7------------|
G|------------------5-------------7---7-5-4----------------|
D|---------------------------------------------------------|
A|---------------------------------------------------------|
E|---------------------------------------------------------|


Paylaşacak bir şey kalmadıysa......
e|-7-5--------------------5--------------------------------|
B|-----8-7-10-8-7-5---8-----8-7-5---5-------8-7------------|
G|------------------5-------------7---7-5-4-----7-9--------|
D|---------------------------------------------------------|
A|---------------------------------------------------------|
E|---------------------------------------------------------|

Fm         &nbs p;         &nbs p;     Bbm
Yaklaştırsana yavaş yavaş kendini bana
D#         &nbs p;    Cm         &nbs p;   Fm
Al içine tekrar derinine sakla kat kasırgana
Fm
Yalan söyleme bak gözlerime
Bbm
Bitmiş olamaz
D#
Yokla ceplerini
Cm         &nbs p;           Fm
Aşk kırıntıları kalmış olmalı biraz..

Fm         &nbs p;          Bbm
Aşk kırıntısıyla doymaktansa
D#         &nbs p;          G#      C
Tek başıma aç kalırım bu hayatta
Fm         &nbs p;             Bbm
Paylaşacak bir şey artık yoksa
D#         &nbs p;           G#    C
Bir erkekle bir kadın arasında..

Fm
Yürürüm ipte ağım yokken hemde
Bbm
Kopkoyu içim
D#
İnan çok çalıştım
Cm         &nbs p;       Fm
Bu kalpsiz dünyayı sevebilmek için
Fm
Neyim var ki sanki senden başka

 


Teoman - Gemiler (Intro)

B---3---2---0---2---5-------7---73---3--------------
G------------http://klasikgitar.hocasi.com-----------
D-4-----------------------4--------------------------

B---3---2---0---2---5-------7---73---3---2----------
G-------http://klasikgitar.hocasi.com----------------
D-4-----------------------4--------------------------

Gemiler (2) - Teoman

B  -------------5-7-7p5----------------------
G  -7-6--4-6-7---------7-7-6-----------------

B  -------------5----------------------------
G  -7-6--4-6-7-------------------------------

B  -----7--------http://klasikgitar.hocasi.com-
G  -7-------6----------------------------------

 

barış manço-cacık(sözüm meclisten dışarı) "solo"

e:------------------------------------------------|
B:-----------------------------------------------|
G:-----------------------------------------------|
D:-----------------------------------------------|
A:---3---2--0----------------2-----------------|
E:----------------3---2---3--------0-----------|


e:-----------------------------------------------|
B:----------------------------------------------|
G:----------------------------------------------|
D:---------------------------------------------|
A:---3---2--0----------------3-----2--------|
E:----------------3---2---3-------------------|

e:------------------------------------------------|
B:-----------------------------------------------|
G:-----------------------------------------------|
D:-----------------------------------------------|
A:---3---2--0----------------2-----------------|
E:----------------3---2---3--------0-----------|


e:----------------------------------------------|
B:----------------------------------------------|
G:---------------------------------------------|
D:---------------------------------------------|
A:-------------0---2---0---------------------|
E:--2--2--3-----------------3--2------------|



e:----------------------------------------------|
B:---------------------------------------------|
G:---------------------------------------------|
D:---------------------------------------------|
A:-------------0---2---0---------------------|
E:------2--3-----------------3--2------------|





e:----------------------------------------------|
B:---------------------------------------------|
G:---------------------------------------------|
D:-0------------------------------------------|
A:-----3--2---0------------------------------|
E:-------------------3---2-----3---2---0-----|


barış manço-hemşerim memleket nire "solo"


E:-------------------------------------------------------
B:-------------------------------------------------------
G:----------------0/2---------------------------0/2---
D:-------------------------------------------------------
A:-0-------0--------------0--3-2----------------------
E:-----3------------------------------3---0-------------









E:----------------------------------------------
B:-----------------------------------------------
G:---------------0/2-----------------------------
D:-----------------------------------------------
A:--0--------0-----------0--3--2--------0---
E:------3----------------------------3----------



barış manço-nazar eyle"solo"

E:--0--2--2--2---------0--0--------------0----------------
B:------------------3-----------2--3--3--------2--0-------
G:---------------------------------------------------------- -
D:---------------------------------------------------------- --
A:---------------------------------------------------------- --
E:---------------------------------------------------------- --




E:--0--2--2--2---------0--0--------------0----------------
B:------------------3-----------2--3--3--------2--0-------
G:---------------------------------------------------------- -
D:---------------------------------------------------------- --
A:---------------------------------------------------------- --
E:---------------------------------------------------------- --




E:----------------------------0-----------------------------
B:---------3--3-3--2---3-------2--0-----2---3---0------
G:----2----------------------------------------------------- -
D:---------------------------------------------------------- -
A:---------------------------------------------------------- -
E:---------------------------------------------------------- -





E:----------------------------0-----------------------------
B:---------3--3-3--2---3-------2--0-----2---3---0------
G:----2----------------------------------------------------- -
D:---------------------------------------------------------- -
A:---------------------------------------------------------- -
E:---------------------------------------------------------- -


barış manço-dağlar dağlar"solo"
E:----------0-----1-1---0-0--------------------0------1--1-- -0---0----------
B:-2-3-3-----3---------------3-3---2-3--3-------3----------- ------3--3---
G:---------------------------------------------------------- --------------------
D:---------------------------------------------------------- --------------------
A:---------------------------------------------------------- --------------------
E:---------------------------------------------------------- --------------------

Ellerimle Büyüttüğüm...

E:----------0-----1-1---0-0--------------------0------1--1-- -0---0----------
B:-2-3-3-----3---------------3-3---2-3--3-------3----------- ------3--3---
G:---------------------------------------------------------- --------------------
D:---------------------------------------------------------- --------------------
A:---------------------------------------------------------- --------------------
E:---------------------------------------------------------- --------------------

Solar iken dirilttiğim...



E:--1--3--3--3--1-3-1-3-1-0-0-------0--1-1-0--0------------- ------------
B:-----------------------------------3--------------------3- -3---------------
G:---------------------------------------------------------- -------------------
D:---------------------------------------------------------- -------------------
A:---------------------------------------------------------- -------------------
E:---------------------------------------------------------- --------------------

Çiçeğimi kopardın sen...




barış manço-şehrazat"solo"

herhangi bir telde



I:----7--5--7--5--3--5--3-2-3-0---3-2-3-2-5-3-2-0

barış manço-gülpembe "solo"

E:----------------------------------------------------
B:---------------------------------------------------
G:------4-4-5-4-2-4---2-0-2--0--2--4--4--2---
D:--2-------------------------------------------------
A:----------------------------------------------------
E:-----------------------------------------------------
sen gülünce...








E:---------------------------------------------------------- --------------------------
B:---------------------------------------------------------- -------------------------
G:---------------------------------------------------------- -------------------------
D:---0------0-------0--2--0------0---------------------0---- ---------------------
A:-------4-------4-------------4------4-2-4----2-4---------- -3--2--0--3---2---
E:---------------------------------------------------------- --------------------------

bülbüller seni söyler...



E:----------------------------------------------------
B:---------------------------------------------------
G:------4-4-5-4-2-4---2-0-2--0--2--4--4--2---
D:--2-------------------------------------------------
A:----------------------------------------------------
E:-----------------------------------------------------
sen gelince...








E:---------------------------------------------------------- --------------------------
B:---------------------------------------------------------- -------------------------
G:---------------------------------------------------------- -------------------------
D:---0------0-------0--2--0------0---------------------0---- ---------------------
A:-------4-------4-------------4------4-2-4----2-4---------- -3--2--0--3---2---
E:---------------------------------------------------------- --------------------------
dereler...






E:---------------------------------------------------------- ----------------------------------------
B:---------------------------------------------------------- ----------------------------------------
G:---------------------------------------------------------- ----------------------------------------
D:-------0--2-2---0-----------------0--2--4-4--2--0--------- ----0----2-2--0-2-4--2--4----
A:---4-------------------4---2---------------------------4-- --4---------------------------------
E:---------------------------------------------------------- ---------------------------------------
güz yağmurlarıyla....








E:---------------------------------------------------------- ----------------------------------------------
B:---------------------------------------------------------- ----------------------------------------------
G:---------------------------------------------------------- ----------------------------------------------
D:-------0--2-2---0-----------------0--2--4-4--2--0--------- ----0----2-2--0--------0-------------
A:---4-------------------4---2---------------------------4-- --4---------------------4------4----2----
E:---------------------------------------------------------- ----------------------------------------------

bizim iller sessiz...





E:----------------------------------------------------
B:---------------------------------------------------
G:------4-4-5-4-2-4---2-0-2--0--2--4--4--2---
D:--2-------------------------------------------------
A:----------------------------------------------------
E:-----------------------------------------------------
dudağımda.....








E:---------------------------------------------------------- --------------------------
B:---------------------------------------------------------- -------------------------
G:---------------------------------------------------------- -------------------------
D:---0------0-------0--2--0------0---------------------0---- ---------------------
A:-------4-------4-------------4------4-2-4----2-4---------- -3--2--0--3---2---
E:---------------------------------------------------------- --------------------------
hala hep seni söyler...



E:----------------------------------------------------
B:---------------------------------------------------
G:------4-4-5-4-2-4---2-0-2--0--2--4--4--2---
D:--2-------------------------------------------------
A:----------------------------------------------------
E:-----------------------------------------------------
gözlerimde ......








E:---------------------------------------------------------- --------------------------
B:---------------------------------------------------------- -------------------------
G:---------------------------------------------------------- -------------------------
D:---0------0-------0--2--0------0---------------------0---- ---------------------
A:-------4-------4-------------4------4-2-4----2-4---------- -3--2--0--3---2---
E:---------------------------------------------------------- --------------------------

 

aliye

E||--------7--7---------|------10-8-7-8-7-5-7-5-3-5-3-1-|
B||------5--------------|-------------------------------|
G||---------------------|-------------------------------|
D||---------------------|-------------------------------|
A||---------------------|-------------------------------|
E||---------------------|-------------------------------|

--3-1-0--0-7--7---------|------10-8-7-8-7-5-7-5-3-5-3-1-|
------------------------|-------------------------------|
------------------------|-------------------------------|
------------------------|-------------------------------|
------------------------|-------------------------------|
------------------------|-------------------------------|

--3-1-0--0-5--5---------|------8-7-5-7-5-3-5-3-1-3-1-0-|
------------------------|------------------------------|
------------------------|------------------------------|
------------------------|------------------------------|
------------------------|------------------------------|
------------------------|------------------------------|

--1-0------3--3---1--5----|--3--1--0------------|---------||
------3--3----------------|---------------------|---------||
--------------------------|---------------------|---------||
--------------------------|---------------------|----------|
--------------------------|---------------------|---------||
--------------------------|---------------------|---------||
 
murat gogebakan tab laıı (YARALI) 
----2-------------------------3----------------------
------3-------------------------3--------------------
--------4---2---------------------4--2-4-2-----------
----------5---5-4------(x4)----------------5-(x2)----
-----------------------------------------------------
-----------------------------------------------------


----2-------------------------------------------------
------3-----------------------------------------------
--------4---2-----------------------------------------
----------5---5-4---(x2)--5--5-4-5-4--2--3-2-----2----
----------------------------------------------5-------
------------------------------------------------------

(solo)
--------------------------------------------------------
--------------------------------------------------------
--------------------------------------------------------
-5-5-5--7--9-9-10-9-7--7-5-&-4-4-4--5--7-7--5-7-5-7-----
--------------------------------------------------------
--------------------------------------------------------

------------------------------------------------------
------------------------------------------------------
----------------7-------------------------------------
-7-7-7-9-10-10----10-9-9-7--&-9-9-9--9----------------
------------------------------------------------------
------------------------------------------------------

------------------------------------------------------
------------------------------------------------------
------------------------------------------------------
9-10-9-7-9-7-9-&-5--5-4--5-4-2-3-2----2---------------
------------------------------------5-----------------
------------------------------------------------------
 
 AY YUZLUM!!!

E                                                      |
B  5-6-5    6-8-6          5  -5                      -|
G                  -7-5-7    5    7-5-3  2-0  -0  2    |
D                                            3        -|

E                                                      |
B                  -5-6-5                              |
G  5-7-5-3-2  -3-5        7-5                          |
D                                                      |

E                                                        |
B      5-6-5          5                                  |
G  5-7        7-5-7-5    7-7  5-3-2  3-2  7-5-3-2-5-3-2-2|
D                                
 
 
 ------------------------------------------------------------ --------------
------------------------------------------------------------ --------------
-9-9~~10--8-8-8-8--5-9-------------------------------------- 9-9-9-9-------
-9-9~~10--8-8-8-8--5-9-3 kere falan böyle yapıyor sonra-----9-9-9-9-------
-7-7~~-8--6-6-6-6--3-7--son kez yapıp sonuna -şunu ekliyor--7-7-7-7-------
------------------------------------------------------------ --------------
                 ve tekrar başa dönüyor sözlere kadar böyle ama söze girmeden
                 aşağıdakini   yapıyor

                                       ve sözler başlıyor
---------------------------------I---------------------I---- ----------------
---------------------------------I---------------------I---- ----------------
--9-9-9-9-9-9-9-9-7-7-7-7-7-7-7-7I-9-----7-----2-----5-I-7-- -9---5--2-------
--9-9-9-9-9-9-9-9-7-7-7-7-7-7-7-7I-9-----7-----2-----5-I-7-- -9---5--2-------
--7-7-7-7-7-7-7-7-5-5-5-5-5-5-5-5I-7-----5-----0-----3-I-5-- -7---3--0-------
---------------------------------I---------------------I---- ----------------
                                       ne kadar çok........ sen orada ben burda birşey
                                                                gelmez elimizden
------------------------------------------------------------ -----------------
------------------------------------------------------------ -----------------
------------------------------------------------------------ -----------------
--5----7----3---5--------------------5-3--7-7---5-3--7-7---9 -9--8-8----------
--5----7----3---5--------------------5-3--7-7---5-3--7-7---9 -9--8-8----------
--3----5----1---3--------------------3-1--5-5---3-1--5-5---7 -7--6-6----------
sen orada ben burda ben de özledim...ben de özledim........sana koşmak isterim derman....
 

ogunun devamı ısteyen arkadas

de bi de

E||------------------------------------------------------|
B||------------------------------------------------------|&n bsp;
G||-----7--10-8-7-5---7-8-7--3--7-5-3-2------------------|&n bsp;  (2 Kere)
D||--5-------------------------------------5-3-5---------|
A||------------------------------------------------------|
E||------------------------------------------------------|

düşmez kalkmaz
intro
  ------------------------------------------------------------ -----
  ------------------------------------------------------------ -----
  ------------------------------------------------------------ -----
  -4-4--4-5-2--4-2----4-4--4-7-2--4-2---4-4--4-5-2--4-2--4-4-4 -4---
  -4-4--4-5-2--4-2----4-4--4-7-2--4-2---4-4--4-5-2--4-2--4-4-4 -4---
  -2-2--2-3-0--2-0----2-2--2-5-0--2-0---2-2--2-3-0--2-0--2-2-2 -2---

 sözler
 -------------------------------------
 -------------------------------------
 -------------------------------------
 -4--4------------------5-5----0-0----
 -4--4------------------5-5----2-2----
 -2--2------------------3-3----0-0----
 dünde kalma......susup bi  dinleee
 kimdin nooldu.....yine gülümseeeee
 sağdı soldu..........sonunu görürsen
 durdun olmaz.........devam et senn

 --------------------------------------
 --------------------------------------
 -4-4----------------------------------
 -4-4------5-5----------4-4------------
 -2-2------5-5----------4-4------------
 ----------3-3----------2-2------------
 sorsan...yok mudur.....sorunla kaynar
 dokunsan..dinlersin....kendinde sanar
 sorsan...çok mudur.....soruyla kaynar
 bulsan....gizlidir.....kalbinde saklar

 nakarat
 --------------------------------------------
 --------------------------------------------
 --------------------------------------------
 -4-4-----------5-5--------------0-0----4-4--
 -4-4-----------5-5--------------2-2----4-4--
 -2-2-----------3-3--------------0-0----2-2--
 sen gel     kederlenme be......kalkmaz bir Allah
 engelleri   yen gel de..........derdine yanma
 
bilmece
-------------------------------------------------------
    -------------------------------------------------------
    -------------------------------------------------------
    ---2-2--5-2-2-5-2--4----2-2-5-2-2--5-2--4-2-2-2-2------
    ---2-2----2-2---2-------2-2---2-2----2----2-2-2-2------
     -------------------------------------------------------


 




    -------------------------------------------------------
    -------------------------------------------------------
    -------------------------------------------------------
    ---2-2--5-2-2-5-2--4----2-2-5-2-2--5-2--4-2-2-2-2------
    ---2-2----2-2---2-------2-2---2-2----2----2-2-2-2------
    -------------------------------------------------------

     Erken öten horozun başı kesilir     
     Binlerce güzelden birir seçilir 



           
   --------------------------------------
   --------------------------------------
   --------------------------------------
   --4--5--7-7-7-7-7-7-7-7-7-7-7-7-7-7----
   --4--5--7-7-7-7-7-7-7-7-7-7-7-7-7-7----
   --2--3--5-5-5-5-5-5-5-5-5-5-5-5-5-5---

   Düşlerim başka gerçek başka ama umurumda da değil

   Arada bunu çalıo arkadaslar

   
    -------------------------------------------------------
    -------------------------------------------------------
    -------------------------------------------------------
    ---2-2--5-2-2-5-2--4----2-2-5-2-2--5-2--4-2-2-2-2------
    ---2-2----2-2---2-------2-2---2-2----2----2-2-2-2------
    -------------------------------------------------------
   


   --------------------------------------
   --------------------------------------
   --------------------------------------
   --4--5--7-7-7-7-7-7-7-7-7-7-7-7-7-7---
   --4--5--7-7-7-7-7-7-7-7-7-7-7-7-7-7---
   --2--3--5-5-5-5-5-5-5-5-5-5-5-5-5-5---
      Kelimeler yasta el başta kederli bir seyir




   ---------------------------------------------------
   ---------------------------------------------------
   ------------------------------------5-5-5-5-5-5-5-5
   --2-2-2-2-2-2-2-2-2-2-2-2-2-2-2-2---5-5-5-5-5-5-5-5
   --2-2-2-2-2-2-2-2-2-2-2-2-2-2-2-2---3-3-3-3-3-3-3-3
   ---------------------------------------------------
    Em                                  C
    Aklıma soktun al bir bilmece gibi
    Em                                   C
    Ya devam et ya vazgeç   bu senin      seçimin.        
   


   ---------------------------------------------------
   --------------------------------------------------- 
   -5-5-5-5-5-5-5-5-----------------------------------
   -5-5-5-5-5-5-5-5--5-5-5-5-5-5-5-5-5-2-2-2-2-2-2-2--
   -3-3-3-3-3-3-3-3--5-5-5-5-5-5-5-5-5-2-2-2-2-2-2-2--
   ------------------3-3-3-3-3-3-3-3-3----------------
                     Am              Em
    Çözemedim tamamen     doldur boş yerleri      
                       Am             Em        
   Ya seviş ya da harbet    Yırtıp at kefeni
 
duman tabı isteyen arkadasım buyur 
2                                    2                   
  2-2-2-2-3-2-2^3^2       & nbsp;    2  -2  2-2-2-3-2-2^3^2-
  2                  -4  4-4-4-4  -4-2                  -4
  4                                    4                   
  4                                    4                   
  2                                    2                   

             -2  -
             -2   
-1-1-1-1-2-1-2     X2
             -4   
             -4   
             -2   

F#m                       E
  Nereye gider başını alıp sorarsın
F#m                      E
  Kimbilir durmadan nasıl susarsın
F#m                   E
  Bilmeden boşuna atıp tutarsın
F#m         E           ; F#m
  Su gibi akıp geçer zaman
                                                           
                                                           
-1-1-1-1-2-1^2^1                                    1-2  -
                   -4-4-4-4-4-4-4-2      4-4-4-4    -4-
                   -4-4-4-4-4-4-4-2                     
                   -2-2-2-2-2-2-2-0                     
F#m         E
  Gezdin tozdun aman aman aman
F#m         E
  Sazdın sözdün aman aman aman
F#m         E
  Giderek üzdün bizi zaman
F#m         E
  Giderek üzdün bizi zaman
F#m         E                       nakarat
  Yazdın çizdin aman aman aman
F#m         E
  İncecik izdin aman aman aman
F#m         E
  Sıraya dizdin bizi zaman
F#m         E
  Sıraya dizdin bizi zaman

  2                                    2                    -
  2-2-2-2-3-2-2^3^2       & nbsp;    2  -2  2-2-2-3-2-2^3^2 
  2                  -4  4-4-4-4  -4-2                  -4-
  4                                    4                    -
  4                                    4                    -
  2                                    2                    -

             -2   
             -2   
-1-1-1-1-2-1-2     X2
             -4   
             -4   
             -2   

F#m                     E
  Hep kaçıp yeni bir Adım atarken
F#m                       E
  Dibine kadar çileye batıp çıkarken
F#m                           E
  İçine atıp atıp yoluna basıp giderken
F#m         E          F#m
  Su gibi akıp geçer zaman
                                                           
                                                           
-1-1-1-1-2-1^2^1                                    1-2  -
                   -4-4-4-4-4-4-4-2      4-4-4-4    -4-
                   -4-4-4-4-4-4-4-2                     
                   -2-2-2-2-2-2-2-0                     

 
 
bu aksam
e|----2-0---0-----0-----2-0---0-----00-|
B|--0-----3---2-3---2-0-----3---2-3----|

e|----2-0---0-----0--------------------|
B|--0-----3---2-3---2-0---3-2-0-3-2-00-|

Solo:

e|----2-0---0-----0-----2-0---0-----00-|
B|--0-----3---2-3---2-0-----3---2-3----|

e|----2-0---0-----0--------------------|
B|--0-----3---2-3---2-0---3-2-0-3-2-00-|

e|---54545454545h7-5454545--10-9-7-----|
B|-0-----------------------------------|

e|---54545454545p4-2---2-0---0---------|
B|-0-----------------------3---2-0-0---|
eskı kopru altında
intro
G:----------------------------------
D:----------------------------------
A:----------------------------------
E:-4---4---5---4-7-12-12-&-5---5-0--
(12den kayma 5e kadar)

G:----------------------------------
D:----------------------------------
A:----------------------------------
E:-----4---5---4-7-12-12-&-0---0-0--
(12den kayma 0a kadar)
2 kes

kıta
   D           ; E
G:-----------------------------------------
D:-----------------------------------------
A:-----------------------------------------
E:-10-10-10-10-12-10-10-10-10-10-10-12-&-(0)
(12den kayma 0a kadar, 0 çalınmıo)
2 kes

intro bi kes

kıta 2 kes

intro bi kes

koro
G:--------------------------------
D:--------------------------------
A:-5-5-5-5-5-5-5-5-4-4-4-4-4-4-4-4
E:--------------------------------

G:--------------------------------
D:--------------------------------
A:-----------------2-2-2-2-2-2-2-2
E:-2-2-2-2-2-2-2-2----------------

G:--------------------------------
D:--------------------------------
A:-5-5-5-5-5-5-5-5-4-4-4-4-4-4-4-4
E:--------------------------------

  F#       G#      A       B
G:--------------------------------
D:--------------------------------
A:--------------------------------
E:-2-2-2-2-4-4-4-4-5-5-5-5-7-7-7-7
4 kes fln sora

G:--------------------------------------------------
D:--------------------------------------------------
A:-5-5-5-5-5-5-5-5-4-4-4-4-4-4-4-4-2----------------
E:---------------------------------------------12-&-
(12den kayma 0a kadar)

hepsi baştan sonra

G:--------------------------------
D:--------------------------------
A:-5-5-5-5-5-5-5-5-4-4-4-4-4-4-4-4
E:--------------------------------

bas solosu
G:-------------------------------4------------4---------
D:-----------------------------4------------4-----------
A:-2---------------2--------------------------2--------2
E:---------------2-------------2------------------------

koro

(F#-G#-A-B) kısmını octave çalabilen çalsın...
G:
D:---4---4---6---6---7---7---9---9
A:--------------------------------
E:-2---2---4---4---5---5---7---7--
hAlimiz duman
D-2-4-4-4-2-4-2-020---------2-4-4-4---2-0-2-0-----2-----
A-------------------4-------------------------4-5-----
E-----------------------------------------------------

D-0-222-0-------------------2----------------------
A---------4-5-4-2---5-4-5-4---4-2------------------
E--------------------------------------------------

E-------------------------------------------
B-2-4-4-4--2-0-2-0----2-4-4-4--2-0-2-0-----2
G-----------------3--------------------3-4

E-----------------------------------------
B-0-2-2-2---------------------2-----------
G---------4-3-4-3-1---4-3-4-3---3-1-------
herseyı yak
eI----------------------------------------------------------
BI----------------------------------------------------------
GI----------------------------------------------------------
DI---9-9-9'10-7-7-7-7-5-5-5-5-4-4-4-------------------------
AI---7-7-7'8--5-5-5-0-3-3-3-0-2-2-2-------------------------
EI----------------------------------------------------------


eI----------------------------------------------------------
BI----------------------------------------------------------
GI----------------------------------------------------------
DI---9-9-9'10-7-7-7-7-5-5-5-5-4-4-4--6-5-3-5--653-3-3-3-----
AI---7-7-7'8--5-5-5-0-3-3-3-0-2-2-2--4-3-1-3--431-5-5-5-----
EI----------------------------------------------------------


eI---------------------------------------------------------
BI---------------------------------------------------------
GI---------------------------------------------------------
DI---------------------------------------------------------
AI----11-11-11'12--9-9-9---7-7-7----5-5-5------------------
EI-----9--9--9'10--7-7-7-0-5-5-5-0--3-3-3------------------

                                                            Am
eI----------------------------------------------------------
BI----------------------------------------------------------
GI----------------------------------------------------------
DI----------------------------------------------------7-7-7-
AI--11-11-11'12--9-9-9---7-7-7----5-5-5--6-5-3-6-5-3--7-7-7-
EI---9--9--9'10--7-7-7-0-5-5-5-0--3-3-3--4-3-1-4-3-1--5-5-5-
 
G-----13-------14-----------9---13-14--13-------16----------
D----X-----X---------X2-----X---X--X---X-&----X--------- ----
A---11----12----------------7--11-12--11---14---------------
E---0---0---------0---------0--0--0---0-&-0------------- ----

Riff 1 her nakarat bittiği zaman ve geçişlerde çalınınacak

Riff 2
G----------------13--------14-------------------------------
D--------------X---------X----------------------------------
A------------11-------12------------------------------------
E----------0--------0---------------------------------------
Denizler  aştım  geliyorum
Bilirsin derdim  seninle

Riff 3
D-----7-----6--------------4--------------------------------
A-----5-----4-------4------2--------------------------------
E-------------------2---------------------------------------
      D5    D#5     F#5    B5

Denizler aştım  geliyorum  ister  eğlen  benimle
Yüzünü  bir  görsem  yeter
G---------4------5-------7-----------------
A--4------3------4-------6-----6----11-----------
E--2------4------5-------7-----4----9-----------


   F#5    G#7(9)  G7(9)   B7(9) G#5  C#5


Nakarat
E-----------------------------------------------------------
B----13----12-------5---------------------------------------
G----11----10-------4---------------------------------------
D-----------------------------------------------------------
A----12----11-------4-----4  -6---7----7-----6----11--------
E----10----9--------2-----2---4---5----9-----4----9---------

   
                     F#5      G#5  A5   B5    G#5  C#5
E-----------------------------------------------------------
B---------------------------------10-9---10---12----10 9----
G---------------------------------11-----11---------11------
D--------------------------------12-----12----------12------
A-----------------------------------------------------------
E-------4h7-----nakarat tekrar------------------------------
-----------------                    

  
özgürlük ülkesi
Giriş

G|  4-4-4        -5-5-5        -6     
D|  4-4-4  5-5-5  5-5-5  6-6-6  6  7   
A|  2-2-2  5-5-5  3-3-3  6-6-6  4  7   
E|        -3-3-3        -4-4-4    -5   

Devamı

G|  7-7-7        -8-8-8        -9  10   
D|  7-7-7  8-8-8  8-8-8  9-9-9  9  10   
A|  5-5-5  8-8-8  6-6-6  9-9-9  7  8     
E|        -6-6-6        -7-7-7             

Solo

G|                                      |
D|                    11-11-11-11-11  |
A|      -7-8        11-11-11-11-11  |
E|  9-10    -9-10  -9  9  9  9  9  -|
cile bulbulum
E                                                                
      -
B      -5    -5    5-6-5                -8  -7-8-7-8  -10-6-
5      -
G    7    7                  7-5-4-2-0                         -
      -
D                                                                
      -
A                                                                
      -
E                                                                
      -

E                                                                
      -
B    5-6    5                    -5                            
      -
G        -7      -7-5-7-5-7                                   
      -
D                                                                
      -
A                                                                
      -
E                                                                
      -

E                                                                
      -
B      -5    -5    5-6-5                    8-7-8    10-6-5 
      -
G    7    7                  7-5-4-2-0                         -
      -
D                                             4                  -
      -
A                                                                
      -
E                                                                
      -

E                                                                
      -
B    5-6    5                                                   
      -
G        -7                                                     
      -
D                                                                
      -
A                                                                
      -
E                                                                
      -
 
bebek
D I------------------------------------------
A I---0-0-0---------0-0-0--------------------
E I--------4-2-2-2-4-----4-2-2-2-------------

   Geri gel beri gel geri bebek         & nbsp;         & nbsp;        

D I-------------------------------------------
A I---0-0-0-----------------------------------
E I--4-----4-2-2-2-4-1-1-1-3-0-0-0------------

   Gözleri sürmeli bebek&Saçları altın bebek

D I-------------------------------------------
A I---0-0-0---------0-0-0---------------------
E I--------4-2-2-2-4-----4-2-2-2--------------
         
   Isıtır ısıtır dudakları&bakışları

D I-------------------------------------------
A I---0-0-0-----------------------------------
E I--4-----4-2-2-2-4-1-1-1-3-0-0-0------------

   Islak ıslak öpmek gerek&Dönüp dönüp bakmak gerek

D I-------------------------------------------
A I----0-0-0-0-0-0-0-0-0-0-0-0-0-0-0-0--------
E I-------------------------------------------
   
celik   affet

 E|-------------------------------------------------------|
 B|-------------------------------------------------------|
 G|-------------------------------------------------------|
 D|----3--3-3--3--3-3--3&7---7--7-7--7--7-7--7'3--------- -|
A|----3--3-3--3--3-3--3&7---7--7-7--7--7-7--7'3----- -----|
E|----1--1-1--1--1-1--1&5---5--5-5--5--5-5--5'1- ---------|

E|--8-7--------------------------------------8 -----------|
B|------10--10-8-6--6-5-6-5h6&10-10h12-8h1 0--------------|
G|---------------------------------------- ---------------|
D|---------------------------------------- ---------------|
A|---------------------------------------- ---------------|
E|---------------------------------------- ---------------|

E|--8-7--------------------------------- -----------------|
B|------10--10-8-6--6-5-6-5h6----------- -----------------|
G|----------------------------------9-7- 5-5-7-7&9--------|
D|---------------------------------- ---------------------|
A|---------------------------------- ---------------------|
E|---------------------------------- ---------------------|

E|-------------------------------- -----------------------|
B|-------------------------------- -----------------------|
G|---9&12--11h12h14--11h12---9 --12h11h9--9h10--7-7h9-----|
D|---------------------------- ---------------------------|
A|---------------------------- ---------------------------|
E|---------------------------- ---------------------------|

E|-------------------------- -----------------------------|
B|-------------------------- -----------------------------|
G|-------------------------- -----------------------------|
D|----3--3-3--3--3-3--3& 7---7--7-7--7--7-7--7'3----------|
A|----3--3-3--3--3-3--3& amp;7---7--7-7--7--7-7--7'3----------|
E|----1--1-1--1--1-1 --1&5---5--5-5--5--5-5--5'1----------| 
 
 


__________________
ekmek şarap sen ve ben
Yukarı Dön Göster pardus's Özellikler Diğer Mesajlarını Ara: pardus
 
jalon
Yeni Üye
Yeni Üye


Kayıt Tarihi: 2007-06-Mayıs
Aktif Durum: Pasif
Gönderilenler: 1
Gönderen: 2007-06-Mayıs Saat 17:47 | Kayıtlı IP Alıntı jalon

çok sağol.Acayip makbulew geçti
Yukarı Dön Göster jalon's Özellikler Diğer Mesajlarını Ara: jalon
 
pardus
Moderatör Grubu
Moderatör Grubu
Simge

Kayıt Tarihi: 2007-19-Nisan
Ülke: Türkiye
Aktif Durum: Pasif
Gönderilenler: 309
Gönderen: 2007-08-Mayıs Saat 16:34 | Kayıtlı IP Alıntı pardus

jalon Yazdı:
çok sağol.Acayip makbulew geçti


__________________
ekmek şarap sen ve ben
Yukarı Dön Göster pardus's Özellikler Diğer Mesajlarını Ara: pardus
 
anderdijey
Yeni Üye
Yeni Üye
Simge

Kayıt Tarihi: 2007-21-Mayıs
Aktif Durum: Pasif
Gönderilenler: 1
Gönderen: 2007-21-Mayıs Saat 17:47 | Kayıtlı IP Alıntı anderdijey

helal olsun kardeş paylaşım süper....

__________________
bizim sevdamız dağlara değil , denizleredir ....   bir kazım ölsede binlercesi gelir..   karadeniz sağolsun...
Yukarı Dön Göster anderdijey's Özellikler Diğer Mesajlarını Ara: anderdijey
 
pardus
Moderatör Grubu
Moderatör Grubu
Simge

Kayıt Tarihi: 2007-19-Nisan
Ülke: Türkiye
Aktif Durum: Pasif
Gönderilenler: 309
Gönderen: 2007-27-Mayıs Saat 17:34 | Kayıtlı IP Alıntı pardus

anderdijey Yazdı:
helal olsun kardeş paylaşım süper....

arkadaşlar paylaşım tek yapılmaz sizen de beklerim



__________________
ekmek şarap sen ve ben
Yukarı Dön Göster pardus's Özellikler Diğer Mesajlarını Ara: pardus
 
Doomswar
Üye
Üye
Simge

Kayıt Tarihi: 2007-14-Haziran
Ülke: Turkiye
Aktif Durum: Pasif
Gönderilenler: 82
Gönderen: 2007-14-Haziran Saat 00:18 | Kayıtlı IP Alıntı Doomswar

çok güzelde çok karışık :( yine de çok teşekkürler 

__________________
Zoru hemen yaparım imkansız zaman alır
Yukarı Dön Göster Doomswar's Özellikler Diğer Mesajlarını Ara: Doomswar
 
pardus
Moderatör Grubu
Moderatör Grubu
Simge

Kayıt Tarihi: 2007-19-Nisan
Ülke: Türkiye
Aktif Durum: Pasif
Gönderilenler: 309
Gönderen: 2007-14-Haziran Saat 02:44 | Kayıtlı IP Alıntı pardus

Arayan meblasınıda belasınıda bulur demi arkadaşım :D



__________________
ekmek şarap sen ve ben
Yukarı Dön Göster pardus's Özellikler Diğer Mesajlarını Ara: pardus
 

Sayfa Sonraki >>
  Yanıt YazYeni Konu Gönder
Yazıcı Sürümü Yazıcı Sürümü

Forum Atla
Kapalı Foruma Yeni Konu Gönderme
Kapalı Forumdaki Konulara Cevap Yazma
Kapalı Forumda Cevapları Silme
Kapalı Forumdaki Cevapları Düzenleme
Kapalı Forumda Anket Açma
Kapalı Forumda Anketlerde Oy Kullanma

Copyright ©1998-2006 
Gitar-tr.com
Design And Coded By ZezeroN Tech



Bu Sayfa 0.0898 Saniyede Yüklendi.